  0
SECTION
  2
HEADER
  9
$ACADVER
  1
AC1015
  9
$ACADMAINTVER
 70
     6
  9
$DWGCODEPAGE
  3
ANSI_1254
  9
$INSBASE
 10
0.0
 20
0.0
 30
0.0
  9
$EXTMIN
 10
0.0
 20
0.0
 30
0.0
  9
$EXTMAX
 10
279.4
 20
215.9
 30
0.0
  9
$LIMMIN
 10
0.0
 20
0.0
  9
$LIMMAX
 10
279.4
 20
215.9
  9
$ORTHOMODE
 70
     0
  9
$REGENMODE
 70
     1
  9
$FILLMODE
 70
     1
  9
$QTEXTMODE
 70
     0
  9
$MIRRTEXT
 70
     1
  9
$LTSCALE
 40
1.0
  9
$ATTMODE
 70
     1
  9
$TEXTSIZE
 40
3.5
  9
$TRACEWID
 40
1.0
  9
$TEXTSTYLE
  7
Standard
  9
$CLAYER
  8
0
  9
$CELTYPE
  6
ByLayer
  9
$CECOLOR
 62
   256
  9
$CELTSCALE
 40
1.0
  9
$DISPSILH
 70
     0
  9
$DIMSCALE
 40
1.0
  9
$DIMASZ
 40
3.5
  9
$DIMEXO
 40
1.0
  9
$DIMDLI
 40
3.75
  9
$DIMRND
 40
0.0
  9
$DIMDLE
 40
0.0
  9
$DIMEXE
 40
1.0
  9
$DIMTP
 40
0.0
  9
$DIMTM
 40
0.0
  9
$DIMTXT
 40
3.5
  9
$DIMCEN
 40
2.5
  9
$DIMTSZ
 40
0.0
  9
$DIMTOL
 70
     0
  9
$DIMLIM
 70
     0
  9
$DIMTIH
 70
     1
  9
$DIMTOH
 70
     1
  9
$DIMSE1
 70
     0
  9
$DIMSE2
 70
     0
  9
$DIMTAD
 70
     1
  9
$DIMZIN
 70
     0
  9
$DIMBLK
  1

  9
$DIMASO
 70
     1
  9
$DIMSHO
 70
     1
  9
$DIMPOST
  1

  9
$DIMAPOST
  1

  9
$DIMALT
 70
     0
  9
$DIMALTD
 70
     3
  9
$DIMALTF
 40
0.0393700787
  9
$DIMLFAC
 40
1.0
  9
$DIMTOFL
 70
     1
  9
$DIMTVP
 40
0.0
  9
$DIMTIX
 70
     0
  9
$DIMSOXD
 70
     0
  9
$DIMSAH
 70
     0
  9
$DIMBLK1
  1

  9
$DIMBLK2
  1

  9
$DIMSTYLE
  2
ISO-25
  9
$DIMCLRD
 70
     0
  9
$DIMCLRE
 70
     0
  9
$DIMCLRT
 70
     0
  9
$DIMTFAC
 40
1.0
  9
$DIMGAP
 40
1.524
  9
$DIMJUST
 70
     0
  9
$DIMSD1
 70
     0
  9
$DIMSD2
 70
     0
  9
$DIMTOLJ
 70
     0
  9
$DIMTZIN
 70
     0
  9
$DIMALTZ
 70
     0
  9
$DIMALTTZ
 70
     0
  9
$DIMUPT
 70
     0
  9
$DIMDEC
 70
     2
  9
$DIMTDEC
 70
     2
  9
$DIMALTU
 70
     2
  9
$DIMALTTD
 70
     3
  9
$DIMTXSTY
  7
Standard
  9
$DIMAUNIT
 70
     0
  9
$DIMADEC
 70
     2
  9
$DIMALTRND
 40
0.0
  9
$DIMAZIN
 70
     0
  9
$DIMDSEP
 70
    44
  9
$DIMATFIT
 70
     3
  9
$DIMFRAC
 70
     0
  9
$DIMLDRBLK
  1

  9
$DIMLUNIT
 70
     2
  9
$DIMLWD
 70
    -2
  9
$DIMLWE
 70
    -2
  9
$DIMTMOVE
 70
     0
  9
$LUNITS
 70
     2
  9
$LUPREC
 70
     2
  9
$SKETCHINC
 40
1.0
  9
$FILLETRAD
 40
10.0
  9
$AUNITS
 70
     0
  9
$AUPREC
 70
     2
  9
$MENU
  1
.
  9
$ELEVATION
 40
0.0
  9
$PELEVATION
 40
0.0
  9
$THICKNESS
 40
0.0
  9
$LIMCHECK
 70
     0
  9
$CHAMFERA
 40
0.0
  9
$CHAMFERB
 40
0.0
  9
$CHAMFERC
 40
0.0
  9
$CHAMFERD
 40
0.0
  9
$SKPOLY
 70
     0
  9
$TDCREATE
 40
2459935.69942
  9
$TDUCREATE
 40
2459935.57442
  9
$TDUPDATE
 40
2459935.699420185
  9
$TDUUPDATE
 40
2459935.574420185
  9
$TDINDWG
 40
0.0000000116
  9
$TDUSRTIMER
 40
0.0000000116
  9
$USRTIMER
 70
     1
  9
$ANGBASE
 50
0.0
  9
$ANGDIR
 70
     0
  9
$PDMODE
 70
     0
  9
$PDSIZE
 40
-1.0
  9
$PLINEWID
 40
0.0
  9
$SPLFRAME
 70
     0
  9
$SPLINETYPE
 70
     6
  9
$SPLINESEGS
 70
     8
  9
$HANDSEED
  5
ED
  9
$SURFTAB1
 70
     6
  9
$SURFTAB2
 70
     6
  9
$SURFTYPE
 70
     6
  9
$SURFU
 70
     6
  9
$SURFV
 70
     6
  9
$UCSBASE
  2

  9
$UCSNAME
  2

  9
$UCSORG
 10
0.0
 20
0.0
 30
0.0
  9
$UCSXDIR
 10
1.0
 20
0.0
 30
0.0
  9
$UCSYDIR
 10
0.0
 20
1.0
 30
0.0
  9
$UCSORTHOREF
  2

  9
$UCSORTHOVIEW
 70
     0
  9
$UCSORGTOP
 10
0.0
 20
0.0
 30
0.0
  9
$UCSORGBOTTOM
 10
0.0
 20
0.0
 30
0.0
  9
$UCSORGLEFT
 10
0.0
 20
0.0
 30
0.0
  9
$UCSORGRIGHT
 10
0.0
 20
0.0
 30
0.0
  9
$UCSORGFRONT
 10
0.0
 20
0.0
 30
0.0
  9
$UCSORGBACK
 10
0.0
 20
0.0
 30
0.0
  9
$PUCSBASE
  2

  9
$PUCSNAME
  2

  9
$PUCSORG
 10
0.0
 20
0.0
 30
0.0
  9
$PUCSXDIR
 10
1.0
 20
0.0
 30
0.0
  9
$PUCSYDIR
 10
0.0
 20
1.0
 30
0.0
  9
$PUCSORTHOREF
  2

  9
$PUCSORTHOVIEW
 70
     0
  9
$PUCSORGTOP
 10
0.0
 20
0.0
 30
0.0
  9
$PUCSORGBOTTOM
 10
0.0
 20
0.0
 30
0.0
  9
$PUCSORGLEFT
 10
0.0
 20
0.0
 30
0.0
  9
$PUCSORGRIGHT
 10
0.0
 20
0.0
 30
0.0
  9
$PUCSORGFRONT
 10
0.0
 20
0.0
 30
0.0
  9
$PUCSORGBACK
 10
0.0
 20
0.0
 30
0.0
  9
$USERI1
 70
     0
  9
$USERI2
 70
     0
  9
$USERI3
 70
     0
  9
$USERI4
 70
     0
  9
$USERI5
 70
     0
  9
$USERR1
 40
0.0
  9
$USERR2
 40
0.0
  9
$USERR3
 40
0.0
  9
$USERR4
 40
0.0
  9
$USERR5
 40
0.0
  9
$WORLDVIEW
 70
     1
  9
$SHADEDGE
 70
     3
  9
$SHADEDIF
 70
    70
  9
$TILEMODE
 70
     1
  9
$MAXACTVP
 70
    64
  9
$PINSBASE
 10
0.0
 20
0.0
 30
0.0
  9
$PLIMCHECK
 70
     0
  9
$PEXTMIN
 10
1.0000000000E+20
 20
1.0000000000E+20
 30
1.0000000000E+20
  9
$PEXTMAX
 10
-1.0000000000E+20
 20
-1.0000000000E+20
 30
-1.0000000000E+20
  9
$PLIMMIN
 10
0.0
 20
0.0
  9
$PLIMMAX
 10
420.0
 20
297.0
  9
$UNITMODE
 70
     0
  9
$VISRETAIN
 70
     1
  9
$PLINEGEN
 70
     0
  9
$PSLTSCALE
 70
     1
  9
$TREEDEPTH
 70
  3020
  9
$CMLSTYLE
  2
Standard
  9
$CMLJUST
 70
     0
  9
$CMLSCALE
 40
20.0
  9
$PROXYGRAPHICS
 70
     1
  9
$MEASUREMENT
 70
     1
  9
$CELWEIGHT
370
    -1
  9
$ENDCAPS
280
     0
  9
$JOINSTYLE
280
     0
  9
$LWDISPLAY
290
     1
  9
$INSUNITS
 70
     4
  9
$HYPERLINKBASE
  1

  9
$STYLESHEET
  1

  9
$XEDIT
290
     1
  9
$CEPSNTYPE
380
     0
  9
$PSTYLEMODE
290
     1
  9
$FINGERPRINTGUID
  2
{e152ce65-6dd6-43a3-9f15-ccbb6748eb38}
  9
$VERSIONGUID
  2
{FAEB1C32-E019-11D5-929B-00C0DF256EC4}
  9
$EXTNAMES
290
     1
  9
$PSVPSCALE
 40
0.0
  9
$OLESTARTUP
290
     0
  0
ENDSEC
  0
SECTION
  2
CLASSES
  0
CLASS
  1
ACDBDICTIONARYWDFLT
  2
AcDbDictionaryWithDefault
  3
ObjectDBX Classes
 90
        0
280
     0
281
     0
  0
CLASS
  1
VISUALSTYLE
  2
AcDbVisualStyle
  3
ObjectDBX Classes
 90
     4095
280
     0
281
     0
  0
CLASS
  1
MATERIAL
  2
AcDbMaterial
  3
ObjectDBX Classes
 90
     1153
280
     0
281
     0
  0
CLASS
  1
SCALE
  2
AcDbScale
  3
ObjectDBX Classes
 90
     1153
280
     0
281
     0
  0
CLASS
  1
TABLESTYLE
  2
AcDbTableStyle
  3
ObjectDBX Classes
 90
     4095
280
     0
281
     0
  0
CLASS
  1
MLEADERSTYLE
  2
AcDbMLeaderStyle
  3
ACDB_MLEADERSTYLE_CLASS
 90
     4095
280
     0
281
     0
  0
CLASS
  1
SUN
  2
AcDbSun
  3
SCENEOE
 90
     1153
280
     0
281
     0
  0
CLASS
  1
ACDBPLACEHOLDER
  2
AcDbPlaceHolder
  3
ObjectDBX Classes
 90
        0
280
     0
281
     0
  0
CLASS
  1
LAYOUT
  2
AcDbLayout
  3
ObjectDBX Classes
 90
        0
280
     0
281
     0
  0
ENDSEC
  0
SECTION
  2
TABLES
  0
TABLE
  2
VPORT
  5
8
330
0
100
AcDbSymbolTable
 70
     1
  0
VPORT
  5
29
330
8
100
AcDbSymbolTableRecord
100
AcDbViewportTableRecord
  2
*Active
 70
     0
 10
0.0
 20
0.0
 11
1.0
 21
1.0
 12
139.7
 22
107.95
 13
0.0
 23
0.0
 14
10.0
 24
10.0
 15
10.0
 25
10.0
 16
0.0
 26
0.0
 36
1.0
 17
0.0
 27
0.0
 37
0.0
 40
215.9
 41
1.2941176471
 42
50.0
 43
0.0
 44
0.0
 50
0.0
 51
0.0
 71
     0
 72
  2000
 73
     1
 74
     3
 75
     0
 76
     0
 77
     0
 78
     0
281
     0
 65
     1
110
0.0
120
0.0
130
0.0
111
1.0
121
0.0
131
0.0
112
0.0
122
1.0
132
0.0
 79
     0
146
0.0
  0
ENDTAB
  0
TABLE
  2
LTYPE
  5
5
330
0
100
AcDbSymbolTable
 70
     6
  0
LTYPE
  5
14
330
5
100
AcDbSymbolTableRecord
100
AcDbLinetypeTableRecord
  2
ByBlock
 70
     0
  3

 72
    65
 73
     0
 40
0.0
  0
LTYPE
  5
15
330
5
100
AcDbSymbolTableRecord
100
AcDbLinetypeTableRecord
  2
ByLayer
 70
     0
  3

 72
    65
 73
     0
 40
0.0
  0
LTYPE
  5
16
330
5
100
AcDbSymbolTableRecord
100
AcDbLinetypeTableRecord
  2
Continuous
 70
     0
  3
Solid line
 72
    65
 73
     0
 40
0.0
  0
LTYPE
  5
6E
330
5
100
AcDbSymbolTableRecord
100
AcDbLinetypeTableRecord
  2
HIDDEN
 70
     0
  3
Hidden __ __ __ __ __ __ __ __ __ __ __ __ __ __
 72
    65
 73
     2
 40
1.905
 49
1.27
 74
     0
 49
-0.635
 74
     0
  0
LTYPE
  5
6F
330
5
100
AcDbSymbolTableRecord
100
AcDbLinetypeTableRecord
  2
PHANTOM
 70
     0
  3
Phantom ______  __  __  ______  __  __  ______
 72
    65
 73
     6
 40
12.7
 49
6.35
 74
     0
 49
-1.27
 74
     0
 49
1.27
 74
     0
 49
-1.27
 74
     0
 49
1.27
 74
     0
 49
-1.27
 74
     0
  0
LTYPE
  5
70
330
5
100
AcDbSymbolTableRecord
100
AcDbLinetypeTableRecord
  2
CENTER
 70
     0
  3
Center ____ _ ____ _ ____ _ ____ _ ____ _ ____
 72
    65
 73
     4
 40
10.16
 49
6.35
 74
     0
 49
-1.27
 74
     0
 49
1.27
 74
     0
 49
-1.27
 74
     0
  0
LTYPE
  5
71
330
5
100
AcDbSymbolTableRecord
100
AcDbLinetypeTableRecord
  2
CENTERX2
 70
     0
  3
Center (2x) ________  __  ________  __  _____
 72
    65
 73
     4
 40
20.32
 49
12.7
 74
     0
 49
-2.54
 74
     0
 49
2.54
 74
     0
 49
-2.54
 74
     0
  0
LTYPE
  5
72
330
5
100
AcDbSymbolTableRecord
100
AcDbLinetypeTableRecord
  2
DOT2
 70
     0
  3
Dot (.5x) ........................................
 72
    65
 73
     2
 40
0.635
 49
0.0
 74
     0
 49
-0.635
 74
     0
  0
ENDTAB
  0
TABLE
  2
LAYER
  5
2
330
0
100
AcDbSymbolTable
 70
    17
  0
LAYER
  5
10
330
2
100
AcDbSymbolTableRecord
100
AcDbLayerTableRecord
  2
0
 70
     0
 62
     7
  6
Continuous
370
    -3
390
F
  0
LAYER
  5
73
330
2
100
AcDbSymbolTableRecord
100
AcDbLayerTableRecord
  2
FORMAT
 70
     0
 62
     7
  6
Continuous
370
    -3
390
F
  0
LAYER
  5
74
330
2
100
AcDbSymbolTableRecord
100
AcDbLayerTableRecord
  2
YARDIMCI_GEOMETRI
 70
     0
 62
    -6
  6
Continuous
290
     0
370
    -3
390
F
  0
LAYER
  5
75
330
2
100
AcDbSymbolTableRecord
100
AcDbLayerTableRecord
  2
SAYFA_CERCEVESI
 70
     0
 62
     7
  6
Continuous
370
    25
390
F
  0
LAYER
  5
76
330
2
100
AcDbSymbolTableRecord
100
AcDbLayerTableRecord
  2
ANTET
 70
     0
 62
     7
  6
Continuous
370
    -3
390
F
  0
LAYER
  5
77
330
2
100
AcDbSymbolTableRecord
100
AcDbLayerTableRecord
  2
OLCU
 70
     0
 62
   150
  6
Continuous
370
    -3
390
F
  0
LAYER
  5
78
330
2
100
AcDbSymbolTableRecord
100
AcDbLayerTableRecord
  2
METIN
 70
     0
 62
    96
  6
Continuous
370
    -3
390
F
  0
LAYER
  5
79
330
2
100
AcDbSymbolTableRecord
100
AcDbLayerTableRecord
  2
BALON
 70
     0
 62
     5
  6
Continuous
370
    -3
390
F
  0
LAYER
  5
7A
330
2
100
AcDbSymbolTableRecord
100
AcDbLayerTableRecord
  2
VURGU
 70
     0
 62
     7
  6
Continuous
370
    -3
390
F
  0
LAYER
  5
7B
330
2
100
AcDbSymbolTableRecord
100
AcDbLayerTableRecord
  2
SILIK
 70
     0
 62
     7
  6
Continuous
370
    -3
390
F
  0
LAYER
  5
7C
330
2
100
AcDbSymbolTableRecord
100
AcDbLayerTableRecord
  2
MODEL
 70
     0
 62
     7
  6
Continuous
370
    -3
390
F
  0
LAYER
  5
7D
330
2
100
AcDbSymbolTableRecord
100
AcDbLayerTableRecord
  2
DETAYLANDıRMA
 70
     0
 62
   190
  6
Continuous
370
    -3
390
F
  0
LAYER
  5
7E
330
2
100
AcDbSymbolTableRecord
100
AcDbLayerTableRecord
  2
TOLERANS
 70
     0
 62
   230
  6
Continuous
370
    -3
390
F
  0
LAYER
  5
7F
330
2
100
AcDbSymbolTableRecord
100
AcDbLayerTableRecord
  2
MERKEZ_CIZGILERI
 70
     0
 62
    30
  6
Continuous
370
    -3
390
F
  0
LAYER
  5
80
330
2
100
AcDbSymbolTableRecord
100
AcDbLayerTableRecord
  2
KESIT-DETAY_CIZGILERI
 70
     0
 62
     7
  6
Continuous
370
    -3
390
F
  0
LAYER
  5
81
330
2
100
AcDbSymbolTableRecord
100
AcDbLayerTableRecord
  2
\U+041E\U+0421\U+0415\U+0412\U+042B\U+0415
 70
     0
 62
     7
  6
Continuous
370
    -3
390
F
  0
LAYER
  5
82
330
2
100
AcDbSymbolTableRecord
100
AcDbLayerTableRecord
  2
\U+0412\U+041E\U+0414\U+042F\U+041D\U+042B\U+0415_\U+0417\U+041D\U+0410\U+041A\U+0418
 70
     0
 62
    11
  6
Continuous
370
    -3
390
F
  0
ENDTAB
  0
TABLE
  2
STYLE
  5
3
330
0
100
AcDbSymbolTable
 70
     1
  0
STYLE
  5
11
330
3
100
AcDbSymbolTableRecord
100
AcDbTextStyleTableRecord
  2
Standard
 70
     0
 40
0.0
 41
1.0
 50
0.0
 71
     0
 42
3.5
  3
txt
  4

  0
ENDTAB
  0
TABLE
  2
VIEW
  5
6
330
0
100
AcDbSymbolTable
 70
     0
  0
ENDTAB
  0
TABLE
  2
UCS
  5
7
330
0
100
AcDbSymbolTable
 70
     0
  0
ENDTAB
  0
TABLE
  2
APPID
  5
9
330
0
100
AcDbSymbolTable
 70
     1
  0
APPID
  5
12
330
9
100
AcDbSymbolTableRecord
100
AcDbRegAppTableRecord
  2
ACAD
 70
     0
  0
ENDTAB
  0
TABLE
  2
DIMSTYLE
  5
A
330
0
100
AcDbSymbolTable
 70
     1
100
AcDbDimStyleTable
  0
DIMSTYLE
105
27
330
A
100
AcDbSymbolTableRecord
100
AcDbDimStyleTableRecord
  2
ISO-25
 70
     0
 41
2.5
 42
0.625
 43
3.75
 44
1.25
 73
     0
 74
     0
 77
     1
 78
     8
140
2.5
141
2.5
143
0.0393700787
147
0.625
171
     3
172
     1
178
     0
271
     2
272
     2
274
     3
278
    44
283
     0
284
     8
340
11
  0
ENDTAB
  0
TABLE
  2
BLOCK_RECORD
  5
1
330
0
100
AcDbSymbolTable
 70
     5
  0
BLOCK_RECORD
  5
1F
330
1
100
AcDbSymbolTableRecord
100
AcDbBlockTableRecord
  2
*Model_Space
340
22
  0
BLOCK_RECORD
  5
1B
330
1
100
AcDbSymbolTableRecord
100
AcDbBlockTableRecord
  2
*Paper_Space
340
1E
  0
BLOCK_RECORD
  5
23
330
1
100
AcDbSymbolTableRecord
100
AcDbBlockTableRecord
  2
*Paper_Space0
340
26
  0
BLOCK_RECORD
  5
97
330
1
100
AcDbSymbolTableRecord
100
AcDbBlockTableRecord
  2
SW_CENTERMARKSYMBOL_0
340
0
102
{BLKREFS
331
A2
102
}
  0
BLOCK_RECORD
  5
AC
330
1
100
AcDbSymbolTableRecord
100
AcDbBlockTableRecord
  2
SW_CENTERMARKSYMBOL_1
340
0
102
{BLKREFS
331
B7
102
}
  0
BLOCK_RECORD
  5
BF
330
1
100
AcDbSymbolTableRecord
100
AcDbBlockTableRecord
  2
SW_CENTERMARKSYMBOL_2
340
0
102
{BLKREFS
331
CA
102
}
  0
BLOCK_RECORD
  5
D2
330
1
100
AcDbSymbolTableRecord
100
AcDbBlockTableRecord
  2
SW_CENTERMARKSYMBOL_3
340
0
102
{BLKREFS
331
DD
102
}
  0
ENDTAB
  0
ENDSEC
  0
SECTION
  2
BLOCKS
  0
BLOCK
  5
20
330
1F
100
AcDbEntity
  8
0
100
AcDbBlockBegin
  2
*Model_Space
 70
     0
 10
0.0
 20
0.0
 30
0.0
  3
*Model_Space
  1

  0
ENDBLK
  5
21
330
1F
100
AcDbEntity
  8
0
100
AcDbBlockEnd
  0
BLOCK
  5
1C
330
1B
100
AcDbEntity
 67
     1
  8
0
100
AcDbBlockBegin
  2
*Paper_Space
 70
     0
 10
0.0
 20
0.0
 30
0.0
  3
*Paper_Space
  1

  0
ENDBLK
  5
1D
330
1B
100
AcDbEntity
 67
     1
  8
0
100
AcDbBlockEnd
  0
BLOCK
  5
24
330
23
100
AcDbEntity
  8
0
100
AcDbBlockBegin
  2
*Paper_Space0
 70
     0
 10
0.0
 20
0.0
 30
0.0
  3
*Paper_Space0
  1

  0
ENDBLK
  5
25
330
23
100
AcDbEntity
  8
0
100
AcDbBlockEnd
  0
BLOCK
  5
98
330
97
100
AcDbEntity
  8
0
100
AcDbBlockBegin
  2
SW_CENTERMARKSYMBOL_0
 70
     0
 10
0.0
 20
0.0
 30
0.0
  3
SW_CENTERMARKSYMBOL_0
  1

  0
LINE
  5
9A
330
97
100
AcDbEntity
  8
FORMAT
 62
     0
100
AcDbLine
 10
0.0
 20
0.0
 30
0.0
 11
0.0
 21
2.5
 31
0.0
  0
LINE
  5
9B
330
97
100
AcDbEntity
  8
FORMAT
 62
     0
100
AcDbLine
 10
0.0
 20
0.0
 30
0.0
 11
-2.5
 21
0.0
 31
0.0
  0
LINE
  5
9C
330
97
100
AcDbEntity
  8
FORMAT
 62
     0
100
AcDbLine
 10
0.0
 20
0.0
 30
0.0
 11
0.0
 21
-2.5
 31
0.0
  0
LINE
  5
9D
330
97
100
AcDbEntity
  8
FORMAT
 62
     0
100
AcDbLine
 10
0.0
 20
0.0
 30
0.0
 11
2.5
 21
0.0
 31
0.0
  0
LINE
  5
9E
330
97
100
AcDbEntity
  8
FORMAT
 62
     0
100
AcDbLine
 10
0.0
 20
5.0
 30
0.0
 11
0.0
 21
127.5
 31
0.0
  0
LINE
  5
9F
330
97
100
AcDbEntity
  8
FORMAT
 62
     0
100
AcDbLine
 10
-5.0
 20
0.0
 30
0.0
 11
-127.5
 21
0.0
 31
0.0
  0
LINE
  5
A0
330
97
100
AcDbEntity
  8
FORMAT
 62
     0
100
AcDbLine
 10
0.0
 20
-5.0
 30
0.0
 11
0.0
 21
-127.5
 31
0.0
  0
LINE
  5
A1
330
97
100
AcDbEntity
  8
FORMAT
 62
     0
100
AcDbLine
 10
5.0
 20
0.0
 30
0.0
 11
127.5
 21
0.0
 31
0.0
  0
ENDBLK
  5
99
330
97
100
AcDbEntity
  8
0
100
AcDbBlockEnd
  0
BLOCK
  5
AD
330
AC
100
AcDbEntity
  8
0
100
AcDbBlockBegin
  2
SW_CENTERMARKSYMBOL_1
 70
     0
 10
0.0
 20
0.0
 30
0.0
  3
SW_CENTERMARKSYMBOL_1
  1

  0
LINE
  5
AF
330
AC
100
AcDbEntity
  8
FORMAT
 62
     0
100
AcDbLine
 10
0.0
 20
0.0
 30
0.0
 11
0.0
 21
2.5
 31
0.0
  0
LINE
  5
B0
330
AC
100
AcDbEntity
  8
FORMAT
 62
     0
100
AcDbLine
 10
0.0
 20
0.0
 30
0.0
 11
-2.5
 21
0.0
 31
0.0
  0
LINE
  5
B1
330
AC
100
AcDbEntity
  8
FORMAT
 62
     0
100
AcDbLine
 10
0.0
 20
0.0
 30
0.0
 11
0.0
 21
-2.5
 31
0.0
  0
LINE
  5
B2
330
AC
100
AcDbEntity
  8
FORMAT
 62
     0
100
AcDbLine
 10
0.0
 20
0.0
 30
0.0
 11
2.5
 21
0.0
 31
0.0
  0
LINE
  5
B3
330
AC
100
AcDbEntity
  8
FORMAT
 62
     0
100
AcDbLine
 10
0.0
 20
5.0
 30
0.0
 11
0.0
 21
127.5
 31
0.0
  0
LINE
  5
B4
330
AC
100
AcDbEntity
  8
FORMAT
 62
     0
100
AcDbLine
 10
-5.0
 20
0.0
 30
0.0
 11
-127.5
 21
0.0
 31
0.0
  0
LINE
  5
B5
330
AC
100
AcDbEntity
  8
FORMAT
 62
     0
100
AcDbLine
 10
0.0
 20
-5.0
 30
0.0
 11
0.0
 21
-127.5
 31
0.0
  0
LINE
  5
B6
330
AC
100
AcDbEntity
  8
FORMAT
 62
     0
100
AcDbLine
 10
5.0
 20
0.0
 30
0.0
 11
127.5
 21
0.0
 31
0.0
  0
ENDBLK
  5
AE
330
AC
100
AcDbEntity
  8
0
100
AcDbBlockEnd
  0
BLOCK
  5
C0
330
BF
100
AcDbEntity
  8
0
100
AcDbBlockBegin
  2
SW_CENTERMARKSYMBOL_2
 70
     0
 10
0.0
 20
0.0
 30
0.0
  3
SW_CENTERMARKSYMBOL_2
  1

  0
LINE
  5
C2
330
BF
100
AcDbEntity
  8
FORMAT
 62
     0
100
AcDbLine
 10
0.0
 20
0.0
 30
0.0
 11
0.0
 21
2.5
 31
0.0
  0
LINE
  5
C3
330
BF
100
AcDbEntity
  8
FORMAT
 62
     0
100
AcDbLine
 10
0.0
 20
0.0
 30
0.0
 11
-2.5
 21
0.0
 31
0.0
  0
LINE
  5
C4
330
BF
100
AcDbEntity
  8
FORMAT
 62
     0
100
AcDbLine
 10
0.0
 20
0.0
 30
0.0
 11
0.0
 21
-2.5
 31
0.0
  0
LINE
  5
C5
330
BF
100
AcDbEntity
  8
FORMAT
 62
     0
100
AcDbLine
 10
0.0
 20
0.0
 30
0.0
 11
2.5
 21
0.0
 31
0.0
  0
LINE
  5
C6
330
BF
100
AcDbEntity
  8
FORMAT
 62
     0
100
AcDbLine
 10
0.0
 20
5.0
 30
0.0
 11
0.0
 21
127.5
 31
0.0
  0
LINE
  5
C7
330
BF
100
AcDbEntity
  8
FORMAT
 62
     0
100
AcDbLine
 10
-5.0
 20
0.0
 30
0.0
 11
-127.5
 21
0.0
 31
0.0
  0
LINE
  5
C8
330
BF
100
AcDbEntity
  8
FORMAT
 62
     0
100
AcDbLine
 10
0.0
 20
-5.0
 30
0.0
 11
0.0
 21
-127.5
 31
0.0
  0
LINE
  5
C9
330
BF
100
AcDbEntity
  8
FORMAT
 62
     0
100
AcDbLine
 10
5.0
 20
0.0
 30
0.0
 11
127.5
 21
0.0
 31
0.0
  0
ENDBLK
  5
C1
330
BF
100
AcDbEntity
  8
0
100
AcDbBlockEnd
  0
BLOCK
  5
D3
330
D2
100
AcDbEntity
  8
0
100
AcDbBlockBegin
  2
SW_CENTERMARKSYMBOL_3
 70
     0
 10
0.0
 20
0.0
 30
0.0
  3
SW_CENTERMARKSYMBOL_3
  1

  0
LINE
  5
D5
330
D2
100
AcDbEntity
  8
FORMAT
 62
     0
100
AcDbLine
 10
0.0
 20
0.0
 30
0.0
 11
0.0
 21
2.5
 31
0.0
  0
LINE
  5
D6
330
D2
100
AcDbEntity
  8
FORMAT
 62
     0
100
AcDbLine
 10
0.0
 20
0.0
 30
0.0
 11
-2.5
 21
0.0
 31
0.0
  0
LINE
  5
D7
330
D2
100
AcDbEntity
  8
FORMAT
 62
     0
100
AcDbLine
 10
0.0
 20
0.0
 30
0.0
 11
0.0
 21
-2.5
 31
0.0
  0
LINE
  5
D8
330
D2
100
AcDbEntity
  8
FORMAT
 62
     0
100
AcDbLine
 10
0.0
 20
0.0
 30
0.0
 11
2.5
 21
0.0
 31
0.0
  0
LINE
  5
D9
330
D2
100
AcDbEntity
  8
FORMAT
 62
     0
100
AcDbLine
 10
0.0
 20
5.0
 30
0.0
 11
0.0
 21
127.5
 31
0.0
  0
LINE
  5
DA
330
D2
100
AcDbEntity
  8
FORMAT
 62
     0
100
AcDbLine
 10
-5.0
 20
0.0
 30
0.0
 11
-127.5
 21
0.0
 31
0.0
  0
LINE
  5
DB
330
D2
100
AcDbEntity
  8
FORMAT
 62
     0
100
AcDbLine
 10
0.0
 20
-5.0
 30
0.0
 11
0.0
 21
-127.5
 31
0.0
  0
LINE
  5
DC
330
D2
100
AcDbEntity
  8
FORMAT
 62
     0
100
AcDbLine
 10
5.0
 20
0.0
 30
0.0
 11
127.5
 21
0.0
 31
0.0
  0
ENDBLK
  5
D4
330
D2
100
AcDbEntity
  8
0
100
AcDbBlockEnd
  0
ENDSEC
  0
SECTION
  2
ENTITIES
  0
LINE
  5
83
330
1F
100
AcDbEntity
  8
0
  6
Continuous
 62
     7
370
    25
100
AcDbLine
 10
-69.2998056597
 20
37.819034413
 30
0.0
 11
-69.2998056597
 21
-129.180965587
 31
0.0
  0
LINE
  5
84
330
1F
100
AcDbEntity
  8
0
  6
Continuous
 62
     7
370
    25
100
AcDbLine
 10
180.7001943403
 20
-129.180965587
 30
0.0
 11
180.7001943403
 21
37.819034413
 31
0.0
  0
ARC
  5
85
330
1F
100
AcDbEntity
  8
0
  6
Continuous
 62
     7
370
    25
100
AcDbCircle
 10
180.7001943403
 20
37.819034413
 30
0.0
 40
250.0
100
AcDbArc
 50
90.0
 51
180.0
  0
LINE
  5
86
330
1F
100
AcDbEntity
  8
0
  6
Continuous
 62
     7
370
    25
100
AcDbLine
 10
347.7001943403
 20
287.819034413
 30
0.0
 11
180.7001943403
 21
287.819034413
 31
0.0
  0
LINE
  5
87
330
1F
100
AcDbEntity
  8
0
  6
Continuous
 62
     7
370
    25
100
AcDbLine
 10
180.7001943403
 20
37.819034413
 30
0.0
 11
347.7001943403
 21
37.819034413
 31
0.0
  0
LINE
  5
88
330
1F
100
AcDbEntity
  8
0
  6
Continuous
 62
     7
370
    25
100
AcDbLine
 10
55.7001943403
 20
-129.180965587
 30
0.0
 11
180.7001943403
 21
-129.180965587
 31
0.0
  0
LINE
  5
89
330
1F
100
AcDbEntity
  8
0
  6
Continuous
 62
     7
370
    25
100
AcDbLine
 10
-69.2998056597
 20
-129.180965587
 30
0.0
 11
55.7001943403
 21
-129.180965587
 31
0.0
  0
LINE
  5
8A
330
1F
100
AcDbEntity
  8
0
  6
Continuous
 62
     7
370
    25
100
AcDbLine
 10
347.7001943403
 20
162.819034413
 30
0.0
 11
347.7001943403
 21
37.819034413
 31
0.0
  0
LINE
  5
8B
330
1F
100
AcDbEntity
  8
0
  6
Continuous
 62
     7
370
    25
100
AcDbLine
 10
347.7001943403
 20
287.819034413
 30
0.0
 11
347.7001943403
 21
162.819034413
 31
0.0
  0
LINE
  5
8C
330
1F
100
AcDbEntity
  8
0
  6
Continuous
 62
     1
370
    25
100
AcDbLine
 10
-69.2998056597
 20
37.819034413
 30
0.0
 11
180.7001943403
 21
37.819034413
 31
0.0
  0
LINE
  5
8D
330
1F
100
AcDbEntity
  8
0
  6
Continuous
 62
     1
370
    25
100
AcDbLine
 10
180.7001943403
 20
287.819034413
 30
0.0
 11
180.7001943403
 21
37.819034413
 31
0.0
  0
LINE
  5
8E
330
1F
100
AcDbEntity
  8
0
  6
Continuous
 62
     7
370
    25
100
AcDbLine
 10
-530.7574813988
 20
162.819034413
 30
0.0
 11
-530.7574813988
 21
37.819034413
 31
0.0
  0
LINE
  5
8F
330
1F
100
AcDbEntity
  8
0
  6
Continuous
 62
     7
370
    25
100
AcDbLine
 10
-280.7574813988
 20
37.819034413
 30
0.0
 11
-280.7574813988
 21
162.819034413
 31
0.0
  0
LINE
  5
90
330
1F
100
AcDbEntity
  8
0
  6
Continuous
 62
     7
370
    25
100
AcDbLine
 10
-530.7574813988
 20
37.819034413
 30
0.0
 11
-530.7574813988
 21
-129.180965587
 31
0.0
  0
LINE
  5
91
330
1F
100
AcDbEntity
  8
0
  6
Continuous
 62
     7
370
    25
100
AcDbLine
 10
-280.7574813988
 20
-129.180965587
 30
0.0
 11
-280.7574813988
 21
37.819034413
 31
0.0
  0
CIRCLE
  5
92
330
1F
100
AcDbEntity
  8
0
  6
Continuous
 62
     7
370
    25
100
AcDbCircle
 10
-405.7574813988
 20
162.819034413
 30
0.0
 40
125.0000000000001
  0
CIRCLE
  5
93
330
1F
100
AcDbEntity
  8
0
  6
Continuous
 62
     7
370
    25
100
AcDbCircle
 10
-405.7574813988
 20
162.819034413
 30
0.0
 40
102.3000000000001
  0
LINE
  5
94
330
1F
100
AcDbEntity
  8
0
  6
Continuous
 62
     7
370
    25
100
AcDbLine
 10
-530.7574813988
 20
-129.180965587
 30
0.0
 11
-280.7574813988
 21
-129.180965587
 31
0.0
  0
LINE
  5
95
330
1F
100
AcDbEntity
  8
0
  6
Continuous
 62
     1
370
    25
100
AcDbLine
 10
-405.7574813988
 20
37.819034413
 30
0.0
 11
-280.7574813988
 21
37.819034413
 31
0.0
  0
LINE
  5
96
330
1F
100
AcDbEntity
  8
0
  6
Continuous
 62
     1
370
    25
100
AcDbLine
 10
-530.7574813988
 20
37.819034413
 30
0.0
 11
-405.7574813988
 21
37.819034413
 31
0.0
  0
INSERT
  5
A2
330
1F
100
AcDbEntity
  8
FORMAT
 62
     7
100
AcDbBlockReference
  2
SW_CENTERMARKSYMBOL_0
 10
-405.7574813988
 20
162.819034413
 30
0.0
  0
LINE
  5
A3
330
1F
100
AcDbEntity
  8
0
  6
Continuous
 62
     7
370
    25
100
AcDbLine
 10
347.7001943403
 20
687.061602268
 30
0.0
 11
180.7001943403
 21
687.061602268
 31
0.0
  0
LINE
  5
A4
330
1F
100
AcDbEntity
  8
0
  6
Continuous
 62
     7
370
    25
100
AcDbLine
 10
180.7001943403
 20
437.061602268
 30
0.0
 11
347.7001943403
 21
437.061602268
 31
0.0
  0
LINE
  5
A5
330
1F
100
AcDbEntity
  8
0
  6
Continuous
 62
     7
370
    25
100
AcDbLine
 10
180.7001943403
 20
687.061602268
 30
0.0
 11
55.7001943403
 21
687.061602268
 31
0.0
  0
LINE
  5
A6
330
1F
100
AcDbEntity
  8
0
  6
Continuous
 62
     7
370
    25
100
AcDbLine
 10
55.7001943403
 20
437.061602268
 30
0.0
 11
180.7001943403
 21
437.061602268
 31
0.0
  0
CIRCLE
  5
A7
330
1F
100
AcDbEntity
  8
0
  6
Continuous
 62
     7
370
    25
100
AcDbCircle
 10
55.7001943403
 20
562.061602268
 30
0.0
 40
102.3000000000001
  0
CIRCLE
  5
A8
330
1F
100
AcDbEntity
  8
0
  6
Continuous
 62
     7
370
    25
100
AcDbCircle
 10
55.7001943403
 20
562.061602268
 30
0.0
 40
125.0
  0
LINE
  5
A9
330
1F
100
AcDbEntity
  8
0
  6
Continuous
 62
     7
370
    25
100
AcDbLine
 10
347.7001943403
 20
687.061602268
 30
0.0
 11
347.7001943403
 21
437.061602268
 31
0.0
  0
LINE
  5
AA
330
1F
100
AcDbEntity
  8
0
  6
Continuous
 62
     1
370
    25
100
AcDbLine
 10
180.7001943403
 20
562.061602268
 30
0.0
 11
180.7001943403
 21
437.061602268
 31
0.0
  0
LINE
  5
AB
330
1F
100
AcDbEntity
  8
0
  6
Continuous
 62
     1
370
    25
100
AcDbLine
 10
180.7001943403
 20
687.061602268
 30
0.0
 11
180.7001943403
 21
562.061602268
 31
0.0
  0
INSERT
  5
B7
330
1F
100
AcDbEntity
  8
FORMAT
 62
     7
100
AcDbBlockReference
  2
SW_CENTERMARKSYMBOL_1
 10
55.7001943403
 20
562.061602268
 30
0.0
  0
LINE
  5
B8
330
1F
100
AcDbEntity
  8
0
  6
Continuous
 62
     7
370
    25
100
AcDbLine
 10
520.6885252775
 20
37.819034413
 30
0.0
 11
520.6885252775
 21
-129.180965587
 31
0.0
  0
LINE
  5
B9
330
1F
100
AcDbEntity
  8
0
  6
Continuous
 62
     7
370
    25
100
AcDbLine
 10
770.6885252775
 20
-129.180965587
 30
0.0
 11
770.6885252775
 21
37.819034413
 31
0.0
  0
LINE
  5
BA
330
1F
100
AcDbEntity
  8
0
  6
Continuous
 62
     7
370
    25
100
AcDbLine
 10
770.6885252775
 20
37.819034413
 30
0.0
 11
770.6885252775
 21
162.819034413
 31
0.0
  0
LINE
  5
BB
330
1F
100
AcDbEntity
  8
0
  6
Continuous
 62
     7
370
    25
100
AcDbLine
 10
520.6885252775
 20
162.819034413
 30
0.0
 11
520.6885252775
 21
37.819034413
 31
0.0
  0
LINE
  5
BC
330
1F
100
AcDbEntity
  8
0
  6
Continuous
 62
     7
370
    25
100
AcDbLine
 10
520.6885252775
 20
-129.180965587
 30
0.0
 11
770.6885252775
 21
-129.180965587
 31
0.0
  0
ARC
  5
BD
330
1F
100
AcDbEntity
  8
0
  6
Continuous
 62
     7
370
    25
100
AcDbCircle
 10
645.6885252775
 20
162.819034413
 30
0.0
 40
125.0
100
AcDbArc
 50
0.0
 51
180.0
  0
LINE
  5
BE
330
1F
100
AcDbEntity
  8
0
  6
Continuous
 62
     1
370
    25
100
AcDbLine
 10
520.6885252775
 20
37.819034413
 30
0.0
 11
770.6885252775
 21
37.819034413
 31
0.0
  0
INSERT
  5
CA
330
1F
100
AcDbEntity
  8
FORMAT
 62
     7
100
AcDbBlockReference
  2
SW_CENTERMARKSYMBOL_2
 10
645.6885252775
 20
162.819034413
 30
0.0
  0
LINE
  5
CB
330
1F
100
AcDbEntity
  8
0
  6
Continuous
 62
     7
370
    25
100
AcDbLine
 10
55.7001943403
 20
-614.8519713676
 30
0.0
 11
180.7001943403
 21
-614.8519713676
 31
0.0
  0
LINE
  5
CC
330
1F
100
AcDbEntity
  8
0
  6
Continuous
 62
     7
370
    25
100
AcDbLine
 10
180.7001943403
 20
-364.8519713676
 30
0.0
 11
55.7001943403
 21
-364.8519713676
 31
0.0
  0
LINE
  5
CD
330
1F
100
AcDbEntity
  8
0
  6
Continuous
 62
     7
370
    25
100
AcDbLine
 10
347.7001943403
 20
-364.8519713676
 30
0.0
 11
180.7001943403
 21
-364.8519713676
 31
0.0
  0
LINE
  5
CE
330
1F
100
AcDbEntity
  8
0
  6
Continuous
 62
     7
370
    25
100
AcDbLine
 10
180.7001943403
 20
-614.8519713676
 30
0.0
 11
347.7001943403
 21
-614.8519713676
 31
0.0
  0
ARC
  5
CF
330
1F
100
AcDbEntity
  8
0
  6
Continuous
 62
     7
370
    25
100
AcDbCircle
 10
55.7001943403
 20
-489.8519713676
 30
0.0
 40
125.0000000000001
100
AcDbArc
 50
90.0
 51
270.0
  0
LINE
  5
D0
330
1F
100
AcDbEntity
  8
0
  6
Continuous
 62
     7
370
    25
100
AcDbLine
 10
347.7001943403
 20
-364.8519713676
 30
0.0
 11
347.7001943403
 21
-614.8519713676
 31
0.0
  0
LINE
  5
D1
330
1F
100
AcDbEntity
  8
0
  6
Continuous
 62
     1
370
    25
100
AcDbLine
 10
180.7001943403
 20
-364.8519713676
 30
0.0
 11
180.7001943403
 21
-614.8519713676
 31
0.0
  0
INSERT
  5
DD
330
1F
100
AcDbEntity
  8
FORMAT
 62
     7
100
AcDbBlockReference
  2
SW_CENTERMARKSYMBOL_3
 10
55.7001943403
 20
-489.8519713676
 30
0.0
  0
LINE
  5
DE
330
1F
100
AcDbEntity
  8
0
  6
Continuous
 62
     7
370
    25
100
AcDbLine
 10
746.8104097543
 20
-194.6153450922
 30
0.0
 11
628.7235772961
 21
-262.7854224294
 31
0.0
  0
LINE
  5
DF
330
1F
100
AcDbEntity
  8
0
  6
Continuous
 62
     7
370
    25
100
AcDbLine
 10
753.7134188756
 20
-479.2976380246
 30
0.0
 11
871.8002513338
 21
-411.1275606874
 31
0.0
  0
LINE
  5
E0
330
1F
100
AcDbEntity
  8
0
  6
Continuous
 62
     7
370
    25
100
AcDbLine
 10
477.8301504376
 20
-524.1346387016
 30
0.0
 11
477.8301504376
 21
-660.4969542865
 31
0.0
  0
LINE
  5
E1
330
1F
100
AcDbEntity
  8
0
  6
Continuous
 62
     7
370
    25
100
AcDbLine
 10
727.8301504376
 20
-660.4969542865
 30
0.0
 11
727.8301504376
 21
-524.1346387016
 31
0.0
  0
SPLINE
  5
E2
330
1F
100
AcDbEntity
  8
0
  6
Continuous
 62
     7
370
    25
100
AcDbSpline
210
0.0
220
0.0
230
1.0
 70
     8
 71
     3
 72
    43
 73
    39
 74
     0
 42
0.00000001
 43
0.00000001
 40
0.0
 40
0.0
 40
0.0
 40
0.0
 40
0.0181914767114075
 40
0.0461723102571846
 40
0.0742121238533268
 40
0.1023747419202671
 40
0.1306211185591674
 40
0.1589150973476156
 40
0.1872150092856638
 40
0.2154954876385553
 40
0.2437374294413032
 40
0.2719277758550222
 40
0.3000591214758315
 40
0.328129085096508
 40
0.3561395731019566
 40
0.3840960311367781
 40
0.4120067438715945
 40
0.4398822126941027
 40
0.4677346192355379
 40
0.4955773682421147
 40
0.5234246946593593
 40
0.5512896419023766
 40
0.5791838501602795
 40
0.6071221398734653
 40
0.6351189181246034
 40
0.6631877926065959
 40
0.6913411195590875
 40
0.7195894629030397
 40
0.7479409471610339
 40
0.7764004967072841
 40
0.8049689714261091
 40
0.8336422364183824
 40
0.8624102419843489
 40
0.891256237008652
 40
0.9201562848052192
 40
0.9490697165241956
 40
0.977954849439644
 40
1.0
 40
1.0
 40
1.0
 40
1.0
 10
628.7235772961309
 20
-262.7854224293918
 30
0.0
 10
627.1302971644228
 20
-263.7196670097379
 30
0.0
 10
623.0863470368499
 20
-266.0909000494825
 30
0.0
 10
616.6998119374438
 20
-270.1390764000328
 30
0.0
 10
609.5801065517045
 20
-274.974266803623
 30
0.0
 10
602.5758284265388
 20
-280.081169019994
 30
0.0
 10
595.6899326671906
 20
-285.4480706368142
 30
0.0
 10
588.9368588107227
 20
-291.0626514104197
 30
0.0
 10
582.3286300544859
 20
-296.9103633882143
 30
0.0
 10
575.8757803668724
 20
-302.9772156135023
 30
0.0
 10
569.5863787252551
 20
-309.2502892310076
 30
0.0
 10
563.4670914649226
 20
-315.7174332085523
 30
0.0
 10
557.5233798030246
 20
-322.3673408039018
 30
0.0
 10
551.7597424155156
 20
-329.1896123424792
 30
0.0
 10
546.179956076381
 20
-336.1747392264622
 30
0.0
 10
540.7873022636072
 20
-343.3140504370467
 30
0.0
 10
535.5847662158501
 20
-350.5996346297159
 30
0.0
 10
530.5752053223221
 20
-358.0242524834247
 30
0.0
 10
525.7614878500406
 20
-365.58124730048
 30
0.0
 10
521.1466059685698
 20
-373.264458116316
 30
0.0
 10
516.7338564401728
 20
-381.0679799419887
 30
0.0
 10
512.5269728328184
 20
-388.9859223433437
 30
0.0
 10
508.5299838703103
 20
-397.0126289745535
 30
0.0
 10
504.7471946495576
 20
-405.1427718313285
 30
0.0
 10
501.1831988477851
 20
-413.371431762546
 30
0.0
 10
497.8430920094875
 20
-421.6936763160372
 30
0.0
 10
494.7325149906645
 20
-430.1044217214916
 30
0.0
 10
491.8576883867105
 20
-438.5982646887974
 30
0.0
 10
489.2254306326221
 20
-447.1692788303546
 30
0.0
 10
486.8431575691208
 20
-455.8107728940978
 30
0.0
 10
484.7188284712815
 20
-464.5150162823827
 30
0.0
 10
482.860913956783
 20
-473.2729354216353
 30
0.0
 10
481.2780385511593
 20
-482.073835716083
 30
0.0
 10
479.9795374943503
 20
-490.9050698771042
 30
0.0
 10
478.9723503370204
 20
-499.751164021559
 30
0.0
 10
478.2713442634339
 20
-508.5933362319952
 30
0.0
 10
477.8903628424492
 20
-516.724540531782
 30
0.0
 10
477.848340004354
 20
-521.8961219736426
 30
0.0
 10
477.8301504375667
 20
-524.134638701615
 30
0.0
  0
SPLINE
  5
E3
330
1F
100
AcDbEntity
  8
0
  6
Continuous
 62
     7
370
    25
100
AcDbSpline
210
0.0
220
0.0
230
1.0
 70
     8
 71
     3
 72
    38
 73
    34
 74
     0
 42
0.00000001
 43
0.00000001
 40
0.0
 40
0.0
 40
0.0
 40
0.0
 40
0.0060499635646324
 40
0.0421436330538829
 40
0.077148071883457
 40
0.1113067900904585
 40
0.1448444784021271
 40
0.177963402921303
 40
0.2108403628793238
 40
0.2436242513914054
 40
0.2764343650008291
 40
0.3093490132972617
 40
0.3424159052513058
 40
0.3756748907111393
 40
0.4091393689103812
 40
0.4427999312610534
 40
0.4766287624309363
 40
0.5105847534854149
 40
0.5446191369880576
 40
0.5786671990688627
 40
0.6126810913351448
 40
0.6466290144337631
 40
0.6804977386638331
 40
0.7142978959469779
 40
0.7480684701682675
 40
0.7818802052819436
 40
0.8158240276589052
 40
0.8500078348365034
 40
0.8845909883955633
 40
0.9197640534801825
 40
0.9557455250340635
 40
0.992777884475004
 40
1.0
 40
1.0
 40
1.0
 40
1.0
 10
727.8291064265934
 20
-524.2361582717011
 30
0.0
 10
727.8290086555324
 20
-524.2428506088132
 30
0.0
 10
727.8283275889991
 20
-524.2894689721328
 30
0.0
 10
727.835496850452
 20
-524.0921666386066
 30
0.0
 10
727.8787634004977
 20
-523.6252380534676
 30
0.0
 10
727.976587935751
 20
-522.8532252685142
 30
0.0
 10
728.1455148770922
 20
-521.8231787340443
 30
0.0
 10
728.4009890799957
 20
-520.541466408779
 30
0.0
 10
728.7563848994831
 20
-519.0266900948424
 30
0.0
 10
729.2230954587887
 20
-517.2965088678678
 30
0.0
 10
729.8101444028923
 20
-515.3718569864725
 30
0.0
 10
730.5237885110149
 20
-513.276430798894
 30
0.0
 10
731.3672418865538
 20
-511.0366609131828
 30
0.0
 10
732.3405248307186
 20
-508.6811823879722
 30
0.0
 10
733.44032451905
 20
-506.2404711953419
 30
0.0
 10
734.6596416600314
 20
-503.7468848860759
 30
0.0
 10
735.9877073325328
 20
-501.2340711156741
 30
0.0
 10
737.4100367206796
 20
-498.7362260531836
 30
0.0
 10
738.908420852248
 20
-496.2875928417089
 30
0.0
 10
740.4614173912922
 20
-493.9212204679015
 30
0.0
 10
742.0449539370233
 20
-491.6678891230051
 30
0.0
 10
743.6332210363313
 20
-489.5549578677811
 30
0.0
 10
745.1991814577895
 20
-487.6059807776187
 30
0.0
 10
746.7151754302274
 20
-485.8403086343299
 30
0.0
 10
748.153502216737
 20
-484.2728260008437
 30
0.0
 10
749.4867869796262
 20
-482.9140371847642
 30
0.0
 10
750.687987484123
 20
-481.7703692297962
 30
0.0
 10
751.7318695190505
 20
-480.8434301972778
 30
0.0
 10
752.5922024255768
 20
-480.1320955571419
 30
0.0
 10
753.2534990619448
 20
-479.6258731588791
 30
0.0
 10
753.665135780687
 20
-479.3329299078262
 30
0.0
 10
753.8462880885245
 20
-479.2188220571477
 30
0.0
 10
753.8051134862478
 20
-479.2434443475248
 30
0.0
 10
753.7983939909975
 20
-479.2474625858098
 30
0.0
  0
LWPOLYLINE
  5
E4
330
1F
100
AcDbEntity
  8
0
  6
Continuous
 62
     7
370
    25
100
AcDbPolyline
 90
      119
 70
   128
 43
0.0
 10
720.9169828957
 20
-251.8459459009
 10
721.042256083
 20
-257.3505243045
 10
721.4177205442
 20
-262.9841367259
 10
722.0423119847
 20
-268.7308140786
 10
722.9142599322
 20
-274.5742667813
 10
724.0310927553
 20
-280.4979309323
 10
725.3896446703
 20
-286.4850152622
 10
726.9860647139
 20
-292.5185487299
 10
728.8158276603
 20
-298.5814286292
 10
730.8737468475
 20
-304.6564690683
 10
733.15398888
 20
-310.7264496852
 10
735.650090164
 20
-316.7741644602
 10
738.3549752292
 20
-322.7824704888
 10
741.2609767851
 20
-328.7343365748
 10
744.3598574546
 20
-334.6128915071
 10
747.6428331235
 20
-340.4014718829
 10
751.1005978409
 20
-346.0836693425
 10
754.7233501968
 20
-351.6433770797
 10
758.5008211061
 20
-357.0648354988
 10
762.4223029172
 20
-362.332676887
 10
766.4766797638
 20
-367.4319689756
 10
770.6524590742
 20
-372.348257267
 10
774.9378041482
 20
-377.067606008
 10
779.3205677098
 20
-381.5766376919
 10
783.7883263393
 20
-385.8625709783
 10
788.3284156896
 20
-389.9132569239
 10
792.9279663841
 20
-393.7172134192
 10
797.5739404967
 20
-397.2636577361
 10
802.2531685089
 20
-400.5425370931
 10
806.9523866406
 20
-403.5445571502
 10
811.6582744475
 20
-406.2612083555
 10
816.3574925792
 20
-408.6847900661
 10
821.0367205914
 20
-410.8084323762
 10
825.682694704
 20
-412.6261155909
 10
830.2822453985
 20
-414.1326872898
 10
834.8223347488
 20
-415.3238769316
 10
839.2900933783
 20
-416.1963079599
 10
843.6728569398
 20
-416.7475073742
 10
847.9582020139
 20
-416.9759127397
 10
852.1339813243
 20
-416.8808766169
 10
856.1883581709
 20
-416.4626683957
 10
860.1098399819
 20
-415.7224735329
 10
863.8873108913
 20
-414.6623901912
 10
867.5100632472
 20
-413.285423292
 10
870.9678279645
 20
-411.5954759977
 10
874.2508036335
 20
-409.5973386473
 10
877.3496843029
 20
-407.2966751784
 10
880.2556858588
 20
-404.7000070715
 10
882.9605709241
 20
-401.8146948645
 10
885.4566722081
 20
-398.6489172882
 10
887.7369142406
 20
-395.2116480832
 10
889.7948334278
 20
-391.5126305625
 10
891.6245963742
 20
-387.5623499931
 10
893.2210164178
 20
-383.3720038745
 10
894.5795683327
 20
-378.9534701981
 10
895.6964011559
 20
-374.3192737776
 10
896.5683491033
 20
-369.4825507462
 10
897.1929405438
 20
-364.4570113208
 10
897.5684050051
 20
-359.256900939
 10
897.6936781924
 20
-353.8969598787
 10
897.5684050051
 20
-348.3923814751
 10
897.1929405438
 20
-342.7587690536
 10
896.5683491033
 20
-337.012091701
 10
895.6964011559
 20
-331.1686389983
 10
894.5795683327
 20
-325.2449748472
 10
893.2210164178
 20
-319.2578905173
 10
891.6245963742
 20
-313.2243570497
 10
889.7948334278
 20
-307.1614771504
 10
887.7369142406
 20
-301.0864367112
 10
885.4566722081
 20
-295.0164560944
 10
882.9605709241
 20
-288.9687413193
 10
880.2556858588
 20
-282.9604352907
 10
877.3496843029
 20
-277.0085692048
 10
874.2508036335
 20
-271.1300142725
 10
870.9678279645
 20
-265.3414338966
 10
867.5100632472
 20
-259.6592364371
 10
863.8873108913
 20
-254.0995286999
 10
860.1098399819
 20
-248.6780702808
 10
856.1883581709
 20
-243.4102288925
 10
852.1339813243
 20
-238.310936804
 10
847.9582020139
 20
-233.3946485126
 10
843.6728569398
 20
-228.6752997716
 10
839.2900933783
 20
-224.1662680877
 10
834.8223347488
 20
-219.8803348012
 10
830.2822453985
 20
-215.8296488557
 10
825.682694704
 20
-212.0256923604
 10
821.0367205914
 20
-208.4792480434
 10
816.3574925792
 20
-205.2003686865
 10
811.6582744475
 20
-202.1983486294
 10
806.9523866406
 20
-199.481697424
 10
802.2531685089
 20
-197.0581157135
 10
797.5739404967
 20
-194.9344734034
 10
792.9279663841
 20
-193.1167901887
 10
788.3284156896
 20
-191.6102184898
 10
783.7883263393
 20
-190.419028848
 10
779.3205677098
 20
-189.5465978197
 10
774.9378041482
 20
-188.9953984054
 10
770.6524590742
 20
-188.7669930398
 10
766.4766797638
 20
-188.8620291627
 10
762.4223029172
 20
-189.2802373839
 10
758.5008211061
 20
-190.0204322467
 10
754.7233501968
 20
-191.0805155884
 10
751.1005978409
 20
-192.4574824875
 10
747.6428331235
 20
-194.1474297819
 10
744.3598574546
 20
-196.1455671322
 10
741.2609767851
 20
-198.4462306011
 10
738.3549752292
 20
-201.042898708
 10
735.650090164
 20
-203.9282109151
 10
733.15398888
 20
-207.0939884914
 10
730.8737468475
 20
-210.5312576964
 10
728.8158276603
 20
-214.2302752171
 10
726.9860647139
 20
-218.1805557864
 10
725.3896446703
 20
-222.370901905
 10
724.0310927553
 20
-226.7894355815
 10
722.9142599322
 20
-231.423632002
 10
722.0423119847
 20
-236.2603550334
 10
721.4177205442
 20
-241.2858944588
 10
721.042256083
 20
-246.4860048405
 10
720.9169828957
 20
-251.8459459009
  0
LWPOLYLINE
  5
E5
330
1F
100
AcDbEntity
  8
0
  6
Continuous
 62
     7
370
    25
100
AcDbPolyline
 90
      108
 70
   128
 43
0.0
 10
736.9683068287
 20
-261.11217797
 10
737.0929871818
 20
-256.2818530697
 10
737.466598442
 20
-251.6121321714
 10
738.0878526941
 20
-247.1191127706
 10
738.9546083458
 20
-242.818283236
 10
740.0638775109
 20
-238.7244694179
 10
741.4118363088
 20
-234.8517835405
 10
742.9938380462
 20
-231.2135755545
 10
744.8044292354
 20
-227.8223871164
 10
746.8373683936
 20
-224.6899083553
 10
749.0856475582
 20
-221.8269375744
 10
751.5415164453
 20
-219.2433440271
 10
754.1965091661
 20
-216.9480338956
 10
757.0414734105
 20
-214.9489195894
 10
760.0666019975
 20
-213.2528924696
 10
763.2614666822
 20
-211.8657990931
 10
766.6150541042
 20
-210.7924210581
 10
770.1158037528
 20
-210.0364585211
 10
773.7516478189
 20
-209.6005174414
 10
777.5100527946
 20
-209.4861005985
 10
781.3780626795
 20
-209.6936024107
 10
785.3423436422
 20
-210.2223075764
 10
789.3892299849
 20
-211.0703935393
 10
793.5047712522
 20
-212.2349367714
 10
797.6747803205
 20
-213.711922851
 10
801.8848823049
 20
-215.4962603011
 10
806.1205641116
 20
-217.5817981407
 10
810.367224468
 20
-219.9613470891
 10
814.610224256
 20
-222.6267043479
 10
818.8349369764
 20
-225.5686818785
 10
823.0267991693
 20
-228.777138075
 10
827.1713606172
 20
-232.2410127242
 10
831.2543341584
 20
-235.9483651325
 10
835.2616449371
 20
-239.8864152881
 10
839.1794789229
 20
-244.0415879165
 10
842.9943305306
 20
-248.3995592767
 10
846.6930491761
 20
-252.9453065387
 10
850.2628846103
 20
-257.6631595699
 10
853.6915308708
 20
-262.5368549537
 10
856.9671687036
 20
-267.5495920522
 10
860.0785063066
 20
-272.6840909224
 10
863.0148182546
 20
-277.922651883
 10
865.7659824718
 20
-283.2472165291
 10
868.3225151254
 20
-288.6394299833
 10
870.6756033176
 20
-294.0807041688
 10
872.817135466
 20
-299.5522818862
 10
874.7397292657
 20
-305.0353014737
 10
876.4367571374
 20
-310.5108618268
 10
877.9023690747
 20
-315.9600875548
 10
879.1315128095
 20
-321.3641940476
 10
880.1199512287
 20
-326.7045522306
 10
880.8642769803
 20
-331.9627527829
 10
881.3619242194
 20
-337.1206695979
 10
881.6111774526
 20
-342.1605222678
 10
881.6111774526
 20
-347.0649373763
 10
881.3619242194
 20
-351.8170083887
 10
880.8642769803
 20
-356.4003539316
 10
880.1199512287
 20
-360.7991742634
 10
879.1315128095
 20
-364.9983057393
 10
877.9023690747
 20
-368.9832730832
 10
876.4367571374
 20
-372.740339287
 10
874.7397292657
 20
-376.2565529653
 10
872.817135466
 20
-379.519793001
 10
870.6756033176
 20
-382.5188103298
 10
868.3225151254
 20
-385.2432667176
 10
865.7659824718
 20
-387.6837703989
 10
863.0148182546
 20
-389.8319084519
 10
860.0785063066
 20
-391.6802757998
 10
856.9671687036
 20
-393.2225007372
 10
853.6915308708
 20
-394.4532668955
 10
850.2628846103
 20
-395.3683315687
 10
846.6930491761
 20
-395.9645403393
 10
842.9943305306
 20
-396.2398379522
 10
839.1794789229
 20
-396.1932753994
 10
835.2616449371
 20
-395.8250131917
 10
831.2543341584
 20
-395.1363208053
 10
827.1713606172
 20
-394.1295723054
 10
823.0267991693
 20
-392.8082381628
 10
818.8349369764
 20
-391.1768732899
 10
814.610224256
 20
-389.2411013393
 10
810.367224468
 20
-387.0075953181
 10
806.1205641116
 20
-384.4840545842
 10
801.8848823049
 20
-381.6791783053
 10
797.6747803205
 20
-378.6026354709
 10
793.5047712522
 20
-375.2650315616
 10
789.3892299849
 20
-371.6778719894
 10
785.3423436422
 20
-367.8535224366
 10
781.3780626795
 20
-363.8051662282
 10
777.5100527946
 20
-359.5467588869
 10
773.7516478189
 20
-355.0929800249
 10
770.1158037528
 20
-350.4591827405
 10
766.6150541042
 20
-345.661340693
 10
763.2614666822
 20
-340.7159930378
 10
760.0666019975
 20
-335.6401874128
 10
757.0414734105
 20
-330.4514211714
 10
754.1965091661
 20
-325.1675810659
 10
751.5415164453
 20
-319.8068815877
 10
749.0856475582
 20
-314.3878021784
 10
746.8373683936
 20
-308.9290235273
 10
744.8044292354
 20
-303.4493631754
 10
742.9938380462
 20
-297.9677106469
 10
741.4118363088
 20
-292.5029623339
 10
740.0638775109
 20
-287.0739563558
 10
738.9546083458
 20
-281.6994076208
 10
738.0878526941
 20
-276.3978433119
 10
737.466598442
 20
-271.1875390196
 10
737.0929871818
 20
-266.086455742
 10
736.9683068287
 20
-261.11217797
  0
LWPOLYLINE
  5
E6
330
1F
100
AcDbEntity
  8
0
  6
Continuous
 62
     7
370
    25
100
AcDbPolyline
 90
      119
 70
   128
 43
0.0
 10
514.4418027892
 20
-609.4714472976
 10
519.271296069
 20
-606.8280775149
 10
524.3376459999
 20
-604.3368379943
 10
529.6264914626
 20
-602.004790425
 10
535.1228406499
 20
-599.838545249
 10
540.811113563
 20
-597.8442429239
 10
546.6751861742
 20
-596.027536516
 10
552.6984361327
 20
-594.3935756773
 10
558.863789882
 20
-592.946992047
 10
565.1537710571
 20
-591.6918861239
 10
571.550550023
 20
-590.6318156418
 10
578.0359944147
 20
-589.7697854859
 10
584.5917205354
 20
-589.1082391741
 10
591.1991454672
 20
-588.6490519315
 10
597.8395397463
 20
-588.3935253742
 10
604.4940804535
 20
-588.3423838198
 10
611.1439045704
 20
-588.4957722348
 10
617.7701624479
 20
-588.853255823
 10
624.3540712382
 20
-589.4138212583
 10
630.8769681365
 20
-590.1758795572
 10
637.3203632828
 20
-591.1372705825
 10
643.6659921736
 20
-592.2952691669
 10
649.8958674343
 20
-593.6465928377
 10
655.9923298067
 20
-595.187411121
 10
661.9380982057
 20
-596.9133564001
 10
667.716318705
 20
-598.8195362956
 10
673.3106123106
 20
-600.9005475334
 10
678.7051213896
 20
-603.150491261
 10
683.8845546199
 20
-605.5629897686
 10
688.8342303352
 20
-608.131204567
 10
693.5401181421
 20
-610.8478557724
 10
697.9888786902
 20
-613.7052427417
 10
702.1679014843
 20
-616.6952659011
 10
706.0653406305
 20
-619.8094497051
 10
709.6701484139
 20
-623.0389666614
 10
712.9721066152
 20
-626.3746623534
 10
715.9618554752
 20
-629.8070813891
 10
718.6309202259
 20
-633.3264942038
 10
720.9717351134
 20
-636.9229246396
 10
722.9776648434
 20
-640.5861782237
 10
724.6430233902
 20
-644.3058710658
 10
725.963090114
 20
-648.0714592924
 10
726.9341231424
 20
-651.8722689345
 10
727.5533699767
 20
-655.6975261844
 10
727.8190752945
 20
-659.5363879345
 10
727.7304859252
 20
-663.3779725144
 10
727.287852985
 20
-667.2113905351
 10
726.492431165
 20
-671.0257757568
 10
725.3464751748
 20
-674.8103158901
 10
723.8532333511
 20
-678.5542832448
 10
722.0169384503
 20
-682.2470651387
 10
719.8427956495
 20
-685.8781939804
 10
717.3369677929
 20
-689.4373769405
 10
714.5065579218
 20
-692.9145251284
 10
711.3595891404
 20
-696.2997821896
 10
707.9049818736
 20
-699.5835522453
 10
704.1525285812
 20
-702.7565270925
 10
700.1128659995
 20
-705.8097125892
 10
695.7974449912
 20
-708.7344541494
 10
691.2184980859
 20
-711.5224612755
 10
686.3890048061
 20
-714.1658310582
 10
681.3226548752
 20
-716.6570705788
 10
676.0338094126
 20
-718.9891181481
 10
670.5374602252
 20
-721.155363324
 10
664.8491873122
 20
-723.1496656492
 10
658.9851147009
 20
-724.966372057
 10
652.9618647424
 20
-726.6003328958
 10
646.7965109931
 20
-728.046916526
 10
640.506529818
 20
-729.3020224492
 10
634.1097508521
 20
-730.3620929313
 10
627.6243064605
 20
-731.2241230872
 10
621.0685803397
 20
-731.8856693989
 10
614.4611554079
 20
-732.3448566416
 10
607.8207611289
 20
-732.6003831989
 10
601.1662204216
 20
-732.6515247532
 10
594.5163963047
 20
-732.4981363383
 10
587.8901384272
 20
-732.1406527501
 10
581.3062296369
 20
-731.5800873147
 10
574.7833327386
 20
-730.8180290159
 10
568.3399375923
 20
-729.8566379906
 10
561.9943087015
 20
-728.6986394062
 10
555.7644334408
 20
-727.3473157354
 10
549.6679710684
 20
-725.8064974521
 10
543.7222026694
 20
-724.0805521729
 10
537.9439821702
 20
-722.1743722775
 10
532.3496885645
 20
-720.0933610397
 10
526.9551794855
 20
-717.843417312
 10
521.7757462552
 20
-715.4309188044
 10
516.8260705399
 20
-712.862704006
 10
512.120182733
 20
-710.1460528007
 10
507.671422185
 20
-707.2886658314
 10
503.4923993908
 20
-704.298642672
 10
499.5949602447
 20
-701.184458868
 10
495.9901524613
 20
-697.9549419116
 10
492.6881942599
 20
-694.6192462197
 10
489.6984453999
 20
-691.186827184
 10
487.0293806492
 20
-687.6674143693
 10
484.6885657618
 20
-684.0709839334
 10
482.6826360318
 20
-680.4077303493
 10
481.017277485
 20
-676.6880375072
 10
479.6972107611
 20
-672.9224492807
 10
478.7261777327
 20
-669.1216396385
 10
478.1069308984
 20
-665.2963823887
 10
477.8412255806
 20
-661.4575206385
 10
477.9298149499
 20
-657.6159360586
 10
478.3724478902
 20
-653.7825180379
 10
479.1678697102
 20
-649.9681328163
 10
480.3138257004
 20
-646.183592683
 10
481.807067524
 20
-642.4396253283
 10
483.6433624249
 20
-638.7468434343
 10
485.8175052256
 20
-635.1157145927
 10
488.3233330822
 20
-631.5565316326
 10
491.1537429533
 20
-628.0793834447
 10
494.3007117348
 20
-624.6941263834
 10
497.7553190015
 20
-621.4103563277
 10
501.507772294
 20
-618.2373814806
 10
505.5474348756
 20
-615.1841959839
 10
509.8628558839
 20
-612.2594544236
 10
514.4418027892
 20
-609.4714472976
  0
LWPOLYLINE
  5
E7
330
1F
100
AcDbEntity
  8
0
  6
Continuous
 62
     7
370
    25
100
AcDbPolyline
 90
      108
 70
   128
 43
0.0
 10
530.4931267222
 20
-618.7376793668
 10
526.3725195553
 20
-621.2604081221
 10
522.5154776812
 20
-623.9183933804
 10
518.9352971222
 20
-626.7024725157
 10
515.6443195023
 20
-629.6030482307
 10
512.6538895032
 20
-632.6101216398
 10
509.9743157566
 20
-635.7133267382
 10
507.6148353083
 20
-638.9019661349
 10
505.5835817762
 20
-642.1650479294
 10
503.887557312
 20
-645.4913236028
 10
502.5326084634
 20
-648.8693267938
 10
501.5234060198
 20
-652.2874128255
 10
500.8634289111
 20
-655.7337988474
 10
500.554952215
 20
-659.1966044528
 10
500.5990393147
 20
-662.6638926334
 10
500.9955382327
 20
-666.1237109287
 10
501.7430821553
 20
-669.5641326281
 10
502.8390941435
 20
-672.9732978855
 10
504.2797960172
 20
-676.3394546019
 10
506.0602213783
 20
-679.6509989377
 10
508.1742327319
 20
-682.8965153136
 10
510.6145426429
 20
-686.0648157623
 10
513.3727388575
 20
-689.1449784958
 10
516.4393133019
 20
-692.1263855552
 10
519.8036948588
 20
-694.9987594125
 10
523.4542858079
 20
-697.7521984002
 10
527.3785018061
 20
-700.3772108435
 10
531.5628152678
 20
-702.8647477808
 10
535.9928019976
 20
-705.206234157
 10
540.6531909136
 20
-707.3935983834
 10
545.5279166898
 20
-709.4193001624
 10
550.6001751365
 20
-711.2763564804
 10
555.8524811282
 20
-712.9583656794
 10
561.2667288779
 20
-714.4595295255
 10
566.824254352
 20
-715.7746731957
 10
572.5058996091
 20
-716.8992631174
 10
578.2920788407
 20
-717.8294225962
 10
584.1628458884
 20
-718.5619451796
 10
590.0979630021
 20
-719.0943057106
 10
596.0769706035
 20
-719.4246690321
 10
602.0792578148
 20
-719.5518963134
 10
608.0841335085
 20
-719.4755489755
 10
614.0708976342
 20
-719.1958902037
 10
620.0189125756
 20
-718.7138840397
 10
625.9076742931
 20
-718.0311920584
 10
631.716883005
 20
-717.1501676407
 10
637.4265131656
 20
-716.0738478602
 10
643.0168824968
 20
-714.8059430141
 10
648.4687198375
 20
-713.3508238332
 10
653.7632315749
 20
-711.7135064146
 10
658.8821664303
 20
-709.8996349308
 10
663.8078783747
 20
-707.9154621725
 10
668.5233874586
 20
-705.7678279942
 10
673.0124383455
 20
-703.4641357358
 10
677.2595563469
 20
-701.0123267018
 10
681.2501007671
 20
-698.4208527859
 10
684.970315373
 20
-695.6986473355
 10
688.4073758141
 20
-692.8550943567
 10
691.5494338311
 20
-689.8999961658
 10
694.3856580989
 20
-686.8435395983
 10
696.9062715651
 20
-683.6962608932
 10
699.1025851528
 20
-680.4690093723
 10
700.967027714
 20
-677.17291004
 10
702.4931721292
 20
-673.8193252337
 10
703.6757574622
 20
-670.4198154548
 10
704.5107070965
 20
-666.9860995178
 10
704.9951427876
 20
-663.5300141529
 10
705.1273945855
 20
-660.0634732023
 10
704.9070065908
 20
-656.5984265508
 10
704.3347385265
 20
-653.1468189321
 10
703.4125631193
 20
-649.7205487526
 10
702.1436592987
 20
-646.3314270754
 10
700.5324012391
 20
-642.991136905
 10
698.5843432809
 20
-639.7111929137
 10
696.3062007834
 20
-636.5029017479
 10
693.7058269757
 20
-633.3773230518
 10
690.792185885
 20
-630.3452313427
 10
687.5753214358
 20
-627.4170788689
 10
684.0663228262
 20
-624.6029595785
 10
680.2772863014
 20
-621.9125743238
 10
676.2212734552
 20
-619.3551974199
 10
671.9122662042
 20
-616.939644675
 10
667.3651185889
 20
-614.6742429997
 10
662.5955055693
 20
-612.5668017029
 10
657.6198689895
 20
-610.6245855713
 10
652.4553608995
 20
-608.8542898264
 10
647.1197844286
 20
-607.2620170442
 10
641.6315324142
 20
-605.8532561189
 10
636.009523998
 20
-604.6328633412
 10
630.2731394076
 20
-603.605045658
 10
624.4421531492
 20
-602.7733461695
 10
618.5366658402
 20
-602.1406319164
 10
612.5770349188
 20
-601.7090839957
 10
606.5838044675
 20
-601.4801900424
 10
600.5776343931
 20
-601.4547391015
 10
594.5792292081
 20
-601.6328189076
 10
588.6092666579
 20
-602.0138155828
 10
582.6883264401
 20
-602.5964157525
 10
576.8368192622
 20
-603.3786110733
 10
571.0749164817
 20
-604.3577051558
 10
565.4224805711
 20
-605.5303228601
 10
559.898996648
 20
-606.8924219298
 10
554.5235053057
 20
-608.4393069273
 10
549.3145369764
 20
-610.1656454196
 10
544.2900480531
 20
-612.0654863603
 10
539.4673589899
 20
-614.1322806041
 10
534.8630945952
 20
-616.358903483
 10
530.4931267222
 20
-618.7376793668
  0
LWPOLYLINE
  5
E8
330
1F
100
AcDbEntity
  8
0
  6
Continuous
 62
     1
370
    25
100
AcDbPolyline
 90
       16
 70
   128
 43
0.0
 10
691.2184980859
 20
-473.1091317127
 10
695.9227181784
 20
-475.6801593142
 10
700.613603648
 20
-477.954577353
 10
705.2778576702
 20
-479.9259387439
 10
709.9022589101
 20
-481.588655449
 10
714.473699
 20
-482.9380143172
 10
718.9792196963
 20
-483.970190444
 10
723.4060496111
 20
-484.6822580141
 10
727.7416404141
 20
-485.0721985946
 10
731.973702402
 20
-485.1389068566
 10
736.0902393354
 20
-484.8821937083
 10
740.079582443
 20
-484.302786831
 10
743.9304234985
 20
-483.4023286163
 10
747.6318468744
 20
-482.1833715111
 10
751.1733604841
 20
-480.6493707815
 10
753.7134188756
 20
-479.2976380246
  0
LWPOLYLINE
  5
E9
330
1F
100
AcDbEntity
  8
0
  6
Continuous
 62
     1
370
    25
100
AcDbPolyline
 90
       46
 70
   128
 43
0.0
 10
628.7235772961
 20
-262.7854224294
 10
627.8920706494
 20
-263.2783857345
 10
624.7000112499
 20
-265.4285481378
 10
621.6965057283
 20
-267.8780820133
 10
618.8900678473
 20
-270.6200438911
 10
616.2886527601
 20
-273.6466613823
 10
613.8996344604
 20
-276.9493552109
 10
611.72978488
 20
-280.5187635323
 10
609.7852546933
 20
-284.344768471
 10
608.0715558825
 20
-288.4165248001
 10
606.593546113
 20
-292.722490684
 10
605.355414964
 20
-297.2504603946
 10
604.3606720529
 20
-301.9875989098
 10
603.6121370865
 20
-306.9204782957
 10
603.1119318684
 20
-312.0351157699
 10
602.8614742848
 20
-317.3170133367
 10
602.8614742848
 20
-322.7511988836
 10
603.1119318684
 20
-328.3222686213
 10
603.6121370865
 20
-334.0144307473
 10
604.3606720529
 20
-339.8115502096
 10
605.355414964
 20
-345.6971944433
 10
606.593546113
 20
-351.6546799504
 10
608.0715558825
 20
-357.6671195909
 10
609.7852546933
 20
-363.7174704514
 10
611.72978488
 20
-369.7885821551
 10
613.8996344604
 20
-375.8632454762
 10
616.2886527601
 20
-381.9242411216
 10
618.8900678473
 20
-387.9543885406
 10
621.6965057283
 20
-393.9365946252
 10
624.7000112499
 20
-399.8539021622
 10
627.8920706494
 20
-405.6895379007
 10
631.2636356877
 20
-411.426960097
 10
634.8051492974
 20
-417.0499054047
 10
638.5065726733
 20
-422.5424349742
 10
642.3574137287
 20
-427.8889796338
 10
646.3467568364
 20
-433.0743840219
 10
650.4632937698
 20
-438.0839495461
 10
654.6953557577
 20
-442.9034760489
 10
659.0309465606
 20
-447.5193020588
 10
663.4577764754
 20
-451.9183435153
 10
667.9632971718
 20
-456.0881308576
 10
672.5347372617
 20
-460.0168443703
 10
677.1591385016
 20
-463.6933476883
 10
681.8233925237
 20
-467.1072193634
 10
686.5142779933
 20
-470.2487824055
 10
691.2184980859
 20
-473.1091317127
  0
LWPOLYLINE
  5
EA
330
1F
100
AcDbEntity
  8
0
  6
Continuous
 62
     1
370
    25
100
AcDbPolyline
 90
       16
 70
   128
 43
0.0
 10
691.2184980859
 20
-473.1091317127
 10
695.7974449912
 20
-475.8971388387
 10
700.1128659995
 20
-478.8218803989
 10
704.1525285812
 20
-481.8750658956
 10
707.9049818736
 20
-485.0480407428
 10
711.3595891404
 20
-488.3318107985
 10
714.5065579218
 20
-491.7170678598
 10
717.3369677929
 20
-495.1942160476
 10
719.8427956495
 20
-498.7533990078
 10
722.0169384503
 20
-502.3845278494
 10
723.8532333511
 20
-506.0773097433
 10
725.3464751748
 20
-509.8212770981
 10
726.492431165
 20
-513.6058172314
 10
727.287852985
 20
-517.420202453
 10
727.7304859252
 20
-521.2536204737
 10
727.8301504376
 20
-524.1346387016
  0
LWPOLYLINE
  5
EB
330
1F
100
AcDbEntity
  8
0
  6
Continuous
 62
     1
370
    25
100
AcDbPolyline
 90
       46
 70
   128
 43
0.0
 10
477.8301504376
 20
-524.1346387016
 10
477.8412255806
 20
-523.1740723496
 10
478.1069308984
 20
-519.3352105994
 10
478.7261777327
 20
-515.5099533496
 10
479.6972107611
 20
-511.7091437075
 10
481.017277485
 20
-507.9435554809
 10
482.6826360318
 20
-504.2238626388
 10
484.6885657618
 20
-500.5606090547
 10
487.0293806492
 20
-496.9641786189
 10
489.6984453999
 20
-493.4447658041
 10
492.6881942599
 20
-490.0123467685
 10
495.9901524613
 20
-486.6766510765
 10
499.5949602447
 20
-483.4471341202
 10
503.4923993908
 20
-480.3329503162
 10
507.671422185
 20
-477.3429271567
 10
512.1201827331
 20
-474.4855401875
 10
516.8260705399
 20
-471.7688889821
 10
521.7757462552
 20
-469.2006741837
 10
526.9551794855
 20
-466.7881756761
 10
532.3496885645
 20
-464.5382319484
 10
537.9439821702
 20
-462.4572207107
 10
543.7222026694
 20
-460.5510408152
 10
549.6679710684
 20
-458.8250955361
 10
555.7644334408
 20
-457.2842772527
 10
561.9943087015
 20
-455.932953582
 10
568.3399375923
 20
-454.7749549975
 10
574.7833327386
 20
-453.8135639723
 10
581.3062296369
 20
-453.0515056734
 10
587.8901384272
 20
-452.4909402381
 10
594.5163963047
 20
-452.1334566499
 10
601.1662204216
 20
-451.9800682349
 10
607.8207611289
 20
-452.0312097892
 10
614.4611554079
 20
-452.2867363466
 10
621.0685803398
 20
-452.7459235892
 10
627.6243064605
 20
-453.4074699009
 10
634.1097508521
 20
-454.2695000569
 10
640.506529818
 20
-455.3295705389
 10
646.7965109931
 20
-456.5846764621
 10
652.9618647424
 20
-458.0312600923
 10
658.9851147009
 20
-459.6652209311
 10
664.8491873122
 20
-461.4819273389
 10
670.5374602252
 20
-463.4762296641
 10
676.0338094126
 20
-465.64247484
 10
681.3226548752
 20
-467.9745224094
 10
686.3890048061
 20
-470.46576193
 10
691.2184980859
 20
-473.1091317127
  0
ENDSEC
  0
SECTION
  2
OBJECTS
  0
DICTIONARY
  5
C
330
0
100
AcDbDictionary
281
     1
  3
ACAD_GROUP
350
D
  3
ACAD_LAYOUT
350
1A
  3
ACAD_MLINESTYLE
350
17
  3
ACAD_PLOTSETTINGS
350
19
  3
ACAD_PLOTSTYLENAME
350
E
  3
ACAD_SCALELIST
350
47
  3
DWGPROPS
350
EC
  0
DICTIONARY
  5
D
102
{ACAD_REACTORS
330
C
102
}
330
C
100
AcDbDictionary
281
     1
  0
DICTIONARY
  5
1A
102
{ACAD_REACTORS
330
C
102
}
330
C
100
AcDbDictionary
281
     1
  3
Layout1
350
1E
  3
Layout2
350
26
  3
Model
350
22
  0
DICTIONARY
  5
17
102
{ACAD_REACTORS
330
C
102
}
330
C
100
AcDbDictionary
281
     1
  3
Standard
350
18
  0
DICTIONARY
  5
19
102
{ACAD_REACTORS
330
C
102
}
330
C
100
AcDbDictionary
281
     1
  0
ACDBDICTIONARYWDFLT
  5
E
102
{ACAD_REACTORS
330
C
102
}
330
C
100
AcDbDictionary
281
     1
  3
Normal
350
F
100
AcDbDictionaryWithDefault
340
F
  0
DICTIONARY
  5
47
102
{ACAD_REACTORS
330
C
102
}
330
C
100
AcDbDictionary
281
     1
  3
A0
350
48
  3
A1
350
49
  3
A2
350
4A
  3
A3
350
4B
  3
A4
350
4C
  3
A5
350
4D
  3
A6
350
4E
  3
A7
350
4F
  3
A8
350
50
  3
A9
350
51
  3
B0
350
52
  3
B1
350
53
  3
B2
350
54
  3
B3
350
55
  3
B4
350
56
  3
B5
350
57
  3
B6
350
58
  3
B7
350
59
  3
B8
350
5A
  3
B9
350
5B
  3
C0
350
5C
  3
C1
350
5D
  3
C2
350
5E
  3
C3
350
5F
  3
C4
350
60
  3
C5
350
61
  3
C6
350
62
  3
C7
350
63
  3
C8
350
64
  3
C9
350
65
  3
D0
350
66
  3
D1
350
67
  3
D2
350
68
  0
XRECORD
  5
EC
102
{ACAD_REACTORS
330
C
102
}
330
C
100
AcDbXrecord
280
     1
  1
DWGPROPS COOKIE
  2

  3

  4

  6

  7

  8
b.kav
  9

300
=
301
=
302
=
303
=
304
=
305
=
306
=
307
=
308
=
309
=
 40
0.0
 41
2459935.57442
 42
2459935.574420185
  1

 90
        0
  0
LAYOUT
  5
1E
102
{ACAD_REACTORS
330
1A
102
}
330
1A
100
AcDbPlotSettings
  1

  2
none_device
  4

  6

 40
0.0
 41
0.0
 42
0.0
 43
0.0
 44
0.0
 45
0.0
 46
0.0
 47
0.0
 48
0.0
 49
0.0
140
0.0
141
0.0
142
1.0
143
1.0
 70
   688
 72
     1
 73
     0
 74
     5
  7

 75
    16
147
1.0
148
0.0
149
0.0
100
AcDbLayout
  1
Layout1
 70
     1
 71
     1
 10
0.0
 20
0.0
 11
420.0
 21
297.0
 12
0.0
 22
0.0
 32
0.0
 14
1.0000000000E+20
 24
1.0000000000E+20
 34
1.0000000000E+20
 15
-1.0000000000E+20
 25
-1.0000000000E+20
 35
-1.0000000000E+20
146
0.0
 13
0.0
 23
0.0
 33
0.0
 16
1.0
 26
0.0
 36
0.0
 17
0.0
 27
1.0
 37
0.0
 76
     0
330
1B
  0
LAYOUT
  5
26
102
{ACAD_REACTORS
330
1A
102
}
330
1A
100
AcDbPlotSettings
  1

  2
none_device
  4

  6

 40
0.0
 41
0.0
 42
0.0
 43
0.0
 44
0.0
 45
0.0
 46
0.0
 47
0.0
 48
0.0
 49
0.0
140
0.0
141
0.0
142
1.0
143
1.0
 70
   688
 72
     1
 73
     0
 74
     5
  7

 75
    16
147
1.0
148
0.0
149
0.0
100
AcDbLayout
  1
Layout2
 70
     1
 71
     2
 10
0.0
 20
0.0
 11
0.0
 21
0.0
 12
0.0
 22
0.0
 32
0.0
 14
0.0
 24
0.0
 34
0.0
 15
0.0
 25
0.0
 35
0.0
146
0.0
 13
0.0
 23
0.0
 33
0.0
 16
1.0
 26
0.0
 36
0.0
 17
0.0
 27
1.0
 37
0.0
 76
     0
330
23
  0
LAYOUT
  5
22
102
{ACAD_REACTORS
330
1A
102
}
330
1A
100
AcDbPlotSettings
  1

  2
none_device
  4
Letter_(8.50_x_11.00_Inches)
  6

 40
6.35
 41
6.35
 42
6.35000508
 43
6.35000508
 44
215.9
 45
279.4
 46
0.0
 47
0.0
 48
0.0
 49
0.0
140
0.0
141
0.0
142
1.0
143
1.0
 70
  1712
 72
     1
 73
     0
 74
     0
  7

 75
     0
147
1.0
148
0.0
149
0.0
100
AcDbLayout
  1
Model
 70
     1
 71
     0
 10
0.0
 20
0.0
 11
279.4
 21
215.9
 12
0.0
 22
0.0
 32
0.0
 14
0.0
 24
0.0
 34
0.0
 15
279.4
 25
215.9
 35
0.0
146
0.0
 13
0.0
 23
0.0
 33
0.0
 16
1.0
 26
0.0
 36
0.0
 17
0.0
 27
1.0
 37
0.0
 76
     0
330
1F
331
29
  0
MLINESTYLE
  5
18
102
{ACAD_REACTORS
330
17
102
}
330
17
100
AcDbMlineStyle
  2
Standard
 70
     0
  3

 62
   256
 51
90.0
 52
90.0
 71
     2
 49
0.5
 62
   256
  6
BYLAYER
 49
-0.5
 62
   256
  6
BYLAYER
  0
ACDBPLACEHOLDER
  5
F
102
{ACAD_REACTORS
330
E
102
}
330
E
  0
SCALE
  5
48
102
{ACAD_REACTORS
330
47
102
}
330
47
100
AcDbScale
 70
     0
300
1:1
140
1.0
141
1.0
290
     1
  0
SCALE
  5
49
102
{ACAD_REACTORS
330
47
102
}
330
47
100
AcDbScale
 70
     0
300
1:2
140
1.0
141
2.0
290
     0
  0
SCALE
  5
4A
102
{ACAD_REACTORS
330
47
102
}
330
47
100
AcDbScale
 70
     0
300
1:4
140
1.0
141
4.0
290
     0
  0
SCALE
  5
4B
102
{ACAD_REACTORS
330
47
102
}
330
47
100
AcDbScale
 70
     0
300
1:5
140
1.0
141
5.0
290
     0
  0
SCALE
  5
4C
102
{ACAD_REACTORS
330
47
102
}
330
47
100
AcDbScale
 70
     0
300
1:8
140
1.0
141
8.0
290
     0
  0
SCALE
  5
4D
102
{ACAD_REACTORS
330
47
102
}
330
47
100
AcDbScale
 70
     0
300
1:10
140
1.0
141
10.0
290
     0
  0
SCALE
  5
4E
102
{ACAD_REACTORS
330
47
102
}
330
47
100
AcDbScale
 70
     0
300
1:16
140
1.0
141
16.0
290
     0
  0
SCALE
  5
4F
102
{ACAD_REACTORS
330
47
102
}
330
47
100
AcDbScale
 70
     0
300
1:20
140
1.0
141
20.0
290
     0
  0
SCALE
  5
50
102
{ACAD_REACTORS
330
47
102
}
330
47
100
AcDbScale
 70
     0
300
1:30
140
1.0
141
30.0
290
     0
  0
SCALE
  5
51
102
{ACAD_REACTORS
330
47
102
}
330
47
100
AcDbScale
 70
     0
300
1:40
140
1.0
141
40.0
290
     0
  0
SCALE
  5
52
102
{ACAD_REACTORS
330
47
102
}
330
47
100
AcDbScale
 70
     0
300
1:50
140
1.0
141
50.0
290
     0
  0
SCALE
  5
53
102
{ACAD_REACTORS
330
47
102
}
330
47
100
AcDbScale
 70
     0
300
1:100
140
1.0
141
100.0
290
     0
  0
SCALE
  5
54
102
{ACAD_REACTORS
330
47
102
}
330
47
100
AcDbScale
 70
     0
300
2:1
140
2.0
141
1.0
290
     0
  0
SCALE
  5
55
102
{ACAD_REACTORS
330
47
102
}
330
47
100
AcDbScale
 70
     0
300
4:1
140
4.0
141
1.0
290
     0
  0
SCALE
  5
56
102
{ACAD_REACTORS
330
47
102
}
330
47
100
AcDbScale
 70
     0
300
8:1
140
8.0
141
1.0
290
     0
  0
SCALE
  5
57
102
{ACAD_REACTORS
330
47
102
}
330
47
100
AcDbScale
 70
     0
300
10:1
140
10.0
141
1.0
290
     0
  0
SCALE
  5
58
102
{ACAD_REACTORS
330
47
102
}
330
47
100
AcDbScale
 70
     0
300
100:1
140
100.0
141
1.0
290
     0
  0
SCALE
  5
59
102
{ACAD_REACTORS
330
47
102
}
330
47
100
AcDbScale
 70
     0
300
1/128" = 1'-0"
140
0.0078125
141
12.0
290
     0
  0
SCALE
  5
5A
102
{ACAD_REACTORS
330
47
102
}
330
47
100
AcDbScale
 70
     0
300
1/64" = 1'-0"
140
0.015625
141
12.0
290
     0
  0
SCALE
  5
5B
102
{ACAD_REACTORS
330
47
102
}
330
47
100
AcDbScale
 70
     0
300
1/32" = 1'-0"
140
0.03125
141
12.0
290
     0
  0
SCALE
  5
5C
102
{ACAD_REACTORS
330
47
102
}
330
47
100
AcDbScale
 70
     0
300
1/16" = 1'-0"
140
0.0625
141
12.0
290
     0
  0
SCALE
  5
5D
102
{ACAD_REACTORS
330
47
102
}
330
47
100
AcDbScale
 70
     0
300
3/32" = 1'-0"
140
0.09375
141
12.0
290
     0
  0
SCALE
  5
5E
102
{ACAD_REACTORS
330
47
102
}
330
47
100
AcDbScale
 70
     0
300
1/8" = 1'-0"
140
0.125
141
12.0
290
     0
  0
SCALE
  5
5F
102
{ACAD_REACTORS
330
47
102
}
330
47
100
AcDbScale
 70
     0
300
3/16" = 1'-0"
140
0.1875
141
12.0
290
     0
  0
SCALE
  5
60
102
{ACAD_REACTORS
330
47
102
}
330
47
100
AcDbScale
 70
     0
300
1/4" = 1'-0"
140
0.25
141
12.0
290
     0
  0
SCALE
  5
61
102
{ACAD_REACTORS
330
47
102
}
330
47
100
AcDbScale
 70
     0
300
3/8" = 1'-0"
140
0.375
141
12.0
290
     0
  0
SCALE
  5
62
102
{ACAD_REACTORS
330
47
102
}
330
47
100
AcDbScale
 70
     0
300
1/2" = 1'-0"
140
0.5
141
12.0
290
     0
  0
SCALE
  5
63
102
{ACAD_REACTORS
330
47
102
}
330
47
100
AcDbScale
 70
     0
300
3/4" = 1'-0"
140
0.75
141
12.0
290
     0
  0
SCALE
  5
64
102
{ACAD_REACTORS
330
47
102
}
330
47
100
AcDbScale
 70
     0
300
1" = 1'-0"
140
1.0
141
12.0
290
     0
  0
SCALE
  5
65
102
{ACAD_REACTORS
330
47
102
}
330
47
100
AcDbScale
 70
     0
300
1-1/2" = 1'-0"
140
1.5
141
12.0
290
     0
  0
SCALE
  5
66
102
{ACAD_REACTORS
330
47
102
}
330
47
100
AcDbScale
 70
     0
300
3" = 1'-0"
140
3.0
141
12.0
290
     0
  0
SCALE
  5
67
102
{ACAD_REACTORS
330
47
102
}
330
47
100
AcDbScale
 70
     0
300
6" = 1'-0"
140
6.0
141
12.0
290
     0
  0
SCALE
  5
68
102
{ACAD_REACTORS
330
47
102
}
330
47
100
AcDbScale
 70
     0
300
1'-0" = 1'-0"
140
12.0
141
12.0
290
     0
  0
ENDSEC
  0
EOF
